  0
SECTION
  2
HEADER
  9
$ACADVER
  1
AC1009
  9
$INSBASE
 10
-1.994301819075417
 20
-0.5770252254271782
 30
0.0
  9
$EXTMIN
 10
-1.994301819075417
 20
-0.5770252254271782
 30
0.0
  9
$EXTMAX
 10
63.5
 20
56.03974265678607
 30
0.0
  9
$LIMMIN
 10
0.0
 20
0.0
  9
$LIMMAX
 10
410.0
 20
287.0
  9
$ORTHOMODE
 70
     0
  9
$REGENMODE
 70
     1
  9
$FILLMODE
 70
     1
  9
$QTEXTMODE
 70
     0
  9
$MIRRTEXT
 70
     1
  9
$DRAGMODE
 70
     2
  9
$LTSCALE
 40
25.0
  9
$OSMODE
 70
     0
  9
$ATTMODE
 70
     1
  9
$TEXTSIZE
 40
3.5
  9
$TRACEWID
 40
1.0
  9
$TEXTSTYLE
  7
STANDARD
  9
$CLAYER
  8
0
  9
$CELTYPE
  6
BYLAYER
  9
$CECOLOR
 62
   256
  9
$DIMSCALE
 40
1.0
  9
$DIMASZ
 40
3.5
  9
$DIMEXO
 40
0.1
  9
$DIMDLI
 40
7.0
  9
$DIMRND
 40
0.0
  9
$DIMDLE
 40
0.0
  9
$DIMEXE
 40
1.8
  9
$DIMTP
 40
0.0
  9
$DIMTM
 40
0.0
  9
$DIMTXT
 40
3.5
  9
$DIMCEN
 40
1.5
  9
$DIMTSZ
 40
0.0
  9
$DIMTOL
 70
     0
  9
$DIMLIM
 70
     0
  9
$DIMTIH
 70
     0
  9
$DIMTOH
 70
     0
  9
$DIMSE1
 70
     0
  9
$DIMSE2
 70
     0
  9
$DIMTAD
 70
     0
  9
$DIMZIN
 70
     0
  9
$DIMBLK
  1

  9
$DIMASO
 70
     1
  9
$DIMSHO
 70
     0
  9
$DIMPOST
  1

  9
$DIMAPOST
  1

  9
$DIMALT
 70
     0
  9
$DIMALTD
 70
     2
  9
$DIMALTF
 40
25.39999999999999
  9
$DIMLFAC
 40
1.0
  9
$DIMTOFL
 70
     0
  9
$DIMTVP
 40
0.0
  9
$DIMTIX
 70
     0
  9
$DIMSOXD
 70
     0
  9
$DIMSAH
 70
     0
  9
$DIMBLK1
  1

  9
$DIMBLK2
  1

  9
$DIMSTYLE
  2
*UNNAMED
  9
$DIMCLRD
 70
     0
  9
$DIMCLRE
 70
     0
  9
$DIMCLRT
 70
     0
  9
$DIMTFAC
 40
1.0
  9
$DIMGAP
 40
0.09
  9
$LUNITS
 70
     2
  9
$LUPREC
 70
     2
  9
$SKETCHINC
 40
1.0
  9
$FILLETRAD
 40
0.0
  9
$AUNITS
 70
     0
  9
$AUPREC
 70
     0
  9
$MENU
  1

  9
$ELEVATION
 40
0.0
  9
$PELEVATION
 40
0.0
  9
$THICKNESS
 40
0.0
  9
$LIMCHECK
 70
     0
  9
$BLIPMODE
 70
     1
  9
$CHAMFERA
 40
0.0
  9
$CHAMFERB
 40
0.0
  9
$SKPOLY
 70
     0
  9
$TDCREATE
 40
2449107.398045138
  9
$TDUPDATE
 40
2449393.441544907
  9
$TDINDWG
 40
0.0002656250
  9
$TDUSRTIMER
 40
0.0002656250
  9
$USRTIMER
 70
     1
  9
$ANGBASE
 50
0.0
  9
$ANGDIR
 70
     0
  9
$PDMODE
 70
     0
  9
$PDSIZE
 40
0.0
  9
$PLINEWID
 40
0.0
  9
$COORDS
 70
     2
  9
$SPLFRAME
 70
     0
  9
$SPLINETYPE
 70
     6
  9
$SPLINESEGS
 70
     8
  9
$ATTDIA
 70
     0
  9
$ATTREQ
 70
     1
  9
$HANDLING
 70
     0
  9
$HANDSEED
  5
B9
  9
$SURFTAB1
 70
     6
  9
$SURFTAB2
 70
     6
  9
$SURFTYPE
 70
     6
  9
$SURFU
 70
     6
  9
$SURFV
 70
     6
  9
$UCSNAME
  2

  9
$UCSORG
 10
0.0
 20
0.0
 30
0.0
  9
$UCSXDIR
 10
1.0
 20
0.0
 30
0.0
  9
$UCSYDIR
 10
0.0
 20
1.0
 30
0.0
  9
$PUCSNAME
  2

  9
$PUCSORG
 10
0.0
 20
0.0
 30
0.0
  9
$PUCSXDIR
 10
1.0
 20
0.0
 30
0.0
  9
$PUCSYDIR
 10
0.0
 20
1.0
 30
0.0
  9
$USERI1
 70
     0
  9
$USERI2
 70
     0
  9
$USERI3
 70
     0
  9
$USERI4
 70
     0
  9
$USERI5
 70
     0
  9
$USERR1
 40
1.0
  9
$USERR2
 40
0.0
  9
$USERR3
 40
0.0
  9
$USERR4
 40
0.0
  9
$USERR5
 40
0.0
  9
$WORLDVIEW
 70
     1
  9
$SHADEDGE
 70
     3
  9
$SHADEDIF
 70
    70
  9
$TILEMODE
 70
     1
  9
$MAXACTVP
 70
    16
  9
$PINSBASE
 10
0.0
 20
0.0
 30
0.0
  9
$PLIMCHECK
 70
     0
  9
$PEXTMIN
 10
1.000000000000000E+20
 20
1.000000000000000E+20
 30
1.000000000000000E+20
  9
$PEXTMAX
 10
-1.000000000000000E+20
 20
-1.000000000000000E+20
 30
-1.000000000000000E+20
  9
$PLIMMIN
 10
0.0
 20
0.0
  9
$PLIMMAX
 10
12.0
 20
9.0
  9
$UNITMODE
 70
     0
  9
$VISRETAIN
 70
     0
  9
$PLINEGEN
 70
     0
  9
$PSLTSCALE
 70
     0
  9
$TREEDEPTH
 70
  3020
  9
$DWGCODEPAGE
  3
undefined
  0
ENDSEC
  0
SECTION
  2
TABLES
  0
TABLE
  2
VPORT
 70
     2
  0
VPORT
  2
*ACTIVE
 70
     0
 10
0.0
 20
0.0
 11
1.0
 21
1.0
 12
37.09173191165734
 22
30.06245036857943
 13
0.0
 23
0.0
 14
1.0
 24
1.0
 15
10.0
 25
10.0
 16
0.0
 26
0.0
 36
1.0
 17
0.0
 27
0.0
 37
0.0
 40
61.27895118801322
 41
1.275675675675675
 42
50.0
 43
0.0
 44
0.0
 50
0.0
 51
0.0
 71
     0
 72
 20000
 73
     1
 74
     0
 75
     0
 76
     0
 77
     0
 78
     0
  0
ENDTAB
  0
TABLE
  2
LTYPE
 70
     3
  0
LTYPE
  2
CONTINUOUS
 70
    64
  3
Ausgezogene Linie
 72
    65
 73
     0
 40
0.0
  0
LTYPE
  2
ITEM-STRICH
 70
    64
  3
- - - - -
 72
    65
 73
     2
 40
1.5
 49
1.2
 49
-0.3
  0
LTYPE
  2
ITEM-STRICHPUNKT
 70
    64
  3
__ . __ . __
 72
    65
 73
     4
 40
3.599999999999999
 49
2.399999999999999
 49
-0.6
 49
0.0
 49
-0.6
  0
ENDTAB
  0
TABLE
  2
LAYER
 70
     5
  0
LAYER
  2
0
 70
     0
 62
     7
  6
CONTINUOUS
  0
LAYER
  2
ITEM_50
 70
    64
 62
     7
  6
CONTINUOUS
  0
LAYER
  2
ITEM_25
 70
    64
 62
     3
  6
CONTINUOUS
  0
LAYER
  2
ITEM_STP
 70
    64
 62
     4
  6
ITEM-STRICHPUNKT
  0
LAYER
  2
ITEM_GSTR
 70
    64
 62
     6
  6
ITEM-STRICH
  0
ENDTAB
  0
TABLE
  2
STYLE
 70
     1
  0
STYLE
  2
STANDARD
 70
     0
 40
0.0
 41
1.0
 50
0.0
 71
     0
 42
3.5
  3
txt
  4

  0
ENDTAB
  0
TABLE
  2
VIEW
 70
     0
  0
ENDTAB
  0
TABLE
  2
UCS
 70
     0
  0
ENDTAB
  0
TABLE
  2
APPID
 70
     1
  0
APPID
  2
ACAD
 70
    64
  0
ENDTAB
  0
TABLE
  2
DIMSTYLE
 70
     0
  0
ENDTAB
  0
ENDSEC
  0
SECTION
  2
BLOCKS
  0
ENDSEC
  0
SECTION
  2
ENTITIES
  0
LINE
  8
ITEM_STP
 10
55.0
 20
56.03974265678607
 30
0.0
 11
55.0
 21
22.49999999999977
 31
0.0
  0
LINE
  8
ITEM_50
 10
52.19999999999936
 20
27.49999999999977
 30
0.0
 11
50.99999999999931
 21
28.69999999999981
 31
0.0
  0
LINE
  8
ITEM_50
 10
57.79999999999949
 20
27.49999999999977
 30
0.0
 11
58.99999999999931
 21
28.69999999999981
 31
0.0
  0
LINE
  8
ITEM_50
 10
58.99999999999954
 20
28.69999999999981
 30
0.0
 11
50.99999999999931
 21
28.69999999999981
 31
0.0
  0
LINE
  8
ITEM_50
 10
52.19999999999936
 20
27.49999999999977
 30
0.0
 11
57.79999999999949
 21
27.49999999999977
 31
0.0
  0
ARC
  8
ITEM_50
 10
54.99999999999954
 20
43.60045003694904
 30
0.0
 40
8.0
 50
111.578964270282
 51
150.8272956000336
  0
LINE
  8
ITEM_50
 10
52.0577346624691
 20
51.03974265678607
 30
0.0
 11
57.94226533753089
 21
51.03974265678607
 31
0.0
  0
LINE
  8
ITEM_50
 10
50.99999999999931
 20
28.69999999999981
 30
0.0
 11
50.99999999999931
 21
45.0
 31
0.0
  0
LINE
  8
ITEM_50
 10
58.99999999999931
 20
28.69999999999981
 30
0.0
 11
58.99999999999931
 21
45.0
 31
0.0
  0
LINE
  8
ITEM_25
 10
58.32299999999941
 20
28.02299999999991
 30
0.0
 11
58.32299999999941
 21
36.5
 31
0.0
  0
LINE
  8
ITEM_25
 10
51.67700000000058
 20
28.02299999999854
 30
0.0
 11
51.67700000000013
 21
36.5
 31
0.0
  0
LINE
  8
ITEM_50
 10
59.0
 20
36.5
 30
0.0
 11
51.0
 21
36.5
 31
0.0
  0
LINE
  8
ITEM_50
 10
46.5
 20
47.5
 30
0.0
 11
46.5
 21
45.0
 31
0.0
  0
LINE
  8
ITEM_50
 10
46.5
 20
45.0
 30
0.0
 11
51.0
 21
45.0
 31
0.0
  0
LINE
  8
ITEM_50
 10
46.5
 20
47.5
 30
0.0
 11
63.5
 21
47.5
 31
0.0
  0
LINE
  8
ITEM_50
 10
63.5
 20
45.0
 30
0.0
 11
59.0
 21
45.0
 31
0.0
  0
LINE
  8
ITEM_50
 10
63.5
 20
47.5
 30
0.0
 11
63.5
 21
45.0
 31
0.0
  0
ARC
  8
ITEM_50
 10
54.99999999999954
 20
43.60045003694904
 30
0.0
 40
8.0
 50
29.17270439996637
 51
68.42103572971814
  0
LINE
  8
ITEM_STP
 10
18.0
 20
56.03974265678584
 30
0.0
 11
18.0
 21
22.49999999999977
 31
0.0
  0
LINE
  8
ITEM_50
 10
33.5
 20
40.16233373502541
 30
0.0
 11
33.49999809265136
 21
47.5
 31
0.0
  0
LINE
  8
ITEM_50
 10
36.0
 20
39.99995155830424
 30
0.0
 11
36.0
 21
45.00000190734863
 31
0.0
  0
ARC
  8
ITEM_50
 10
33.50000000000022
 20
45.0
 30
0.0
 40
2.5
 50
0.0000000000001527
 51
90.0
  0
ARC
  8
ITEM_50
 10
32.00000000000022
 20
40.16233508372442
 30
0.0
 40
1.5
 50
225.0
 51
0.0
  0
LINE
  8
ITEM_50
 10
25.24857178879688
 20
43.74852469580037
 30
0.0
 11
23.48080483583203
 21
41.98075774283461
 31
0.0
  0
LINE
  8
ITEM_50
 10
23.48080483583203
 20
41.98075774283461
 30
0.0
 11
25.24857178879688
 21
43.74852469580037
 31
0.0
  0
LINE
  8
ITEM_50
 10
30.93933982822022
 20
39.10167491194465
 30
0.0
 11
25.24857178879688
 21
43.74852469580037
 31
0.0
  0
LINE
  8
ITEM_50
 10
29.17157287525378
 20
37.33390795897776
 30
0.0
 11
23.48080483583066
 21
41.98075774283324
 31
0.0
  0
ARC
  8
ITEM_50
 10
32.00000000000022
 20
40.16233508372442
 30
0.0
 40
4.0
 50
225.0000000000068
 51
0.0
  0
ARC
  8
ITEM_50
 10
4.000000000000227
 20
40.16233508372442
 30
0.0
 40
4.0
 50
180.0
 51
314.9999999999931
  0
LINE
  8
ITEM_50
 10
6.828427124746212
 20
37.33390795897776
 30
0.0
 11
12.51919516416933
 21
41.98075774283324
 31
0.0
  0
LINE
  8
ITEM_50
 10
15.0577346624691
 20
51.03974265678607
 30
0.0
 11
20.94226533753089
 21
51.03974265678607
 31
0.0
  0
ARC
  8
ITEM_50
 10
17.99999999999977
 20
43.60045003694904
 30
0.0
 40
8.0
 50
29.17270439996637
 51
68.42103572971814
  0
ARC
  8
ITEM_50
 10
17.99999999999954
 20
43.60045003694904
 30
0.0
 40
8.0
 50
111.578964270282
 51
150.8272956000336
  0
LINE
  8
ITEM_50
 10
15.19999999999936
 20
27.49999999999977
 30
0.0
 11
20.79999999999927
 21
27.49999999999977
 31
0.0
  0
LINE
  8
ITEM_50
 10
2.5
 20
47.5
 30
0.0
 11
33.5
 21
47.5
 31
0.0
  0
LINE
  8
ITEM_50
 10
5.060660171779773
 20
39.10167491194465
 30
0.0
 11
10.75142821120311
 21
43.74852469580037
 31
0.0
  0
LINE
  8
ITEM_50
 10
12.51919516416819
 20
41.98075774283461
 30
0.0
 11
10.75142821120311
 21
43.74852469580037
 31
0.0
  0
LINE
  8
ITEM_50
 10
10.75142821120311
 20
43.74852469580037
 30
0.0
 11
12.51919516416819
 21
41.98075774283461
 31
0.0
  0
ARC
  8
ITEM_50
 10
4.000000000000227
 20
40.16233508372442
 30
0.0
 40
1.5
 50
180.0
 51
315.0
  0
ARC
  8
ITEM_50
 10
2.500000000000227
 20
45.0
 30
0.0
 40
2.5
 50
90.0
 51
179.9999999999998
  0
LINE
  8
ITEM_50
 10
2.5
 20
45.0
 30
0.0
 11
33.5
 21
45.0
 31
0.0
  0
LINE
  8
ITEM_50
 10
21.99999999999931
 20
28.69999999999981
 30
0.0
 11
13.99999999999931
 21
28.69999999999981
 31
0.0
  0
LINE
  8
ITEM_50
 10
20.79999999999927
 20
27.49999999999977
 30
0.0
 11
21.99999999999931
 21
28.69999999999981
 31
0.0
  0
LINE
  8
ITEM_50
 10
15.19999999999936
 20
27.49999999999977
 30
0.0
 11
13.99999999999931
 21
28.69999999999981
 31
0.0
  0
LINE
  8
ITEM_50
 10
21.99999999999931
 20
28.69999999999981
 30
0.0
 11
21.99999999999931
 21
45.0
 31
0.0
  0
LINE
  8
ITEM_25
 10
21.32299999999941
 20
28.02299999999991
 30
0.0
 11
21.32299999999941
 21
45.0
 31
0.0
  0
LINE
  8
ITEM_25
 10
14.67700000000058
 20
28.02299999999854
 30
0.0
 11
14.67699999999945
 21
45.0
 31
0.0
  0
LINE
  8
ITEM_50
 10
13.99999999999931
 20
28.69999999999981
 30
0.0
 11
13.99999999999931
 21
45.0
 31
0.0
  0
LINE
  8
ITEM_50
 10
0.0
 20
39.99995155830424
 30
0.0
 11
0.0
 21
45.00000190734863
 31
0.0
  0
LINE
  8
ITEM_50
 10
2.5
 20
40.16233373502541
 30
0.0
 11
2.500001907348632
 21
47.5
 31
0.0
  0
LINE
  8
ITEM_STP
 10
18.0
 20
8.5
 30
0.0
 11
18.0
 21
-0.5770252254271782
 31
0.0
  0
LINE
  8
ITEM_STP
 10
18.0
 20
8.5
 30
0.0
 11
-1.994301819075417
 21
8.5
 31
0.0
  0
LINE
  8
ITEM_STP
 10
18.0
 20
8.5
 30
0.0
 11
18.0
 21
17.57702522542717
 31
0.0
  0
LINE
  8
ITEM_STP
 10
18.0
 20
8.5
 30
0.0
 11
37.60413122935756
 21
8.5
 31
0.0
  0
CIRCLE
  8
ITEM_GSTR
 10
18.0
 20
8.5
 30
0.0
 40
3.0
  0
CIRCLE
  8
ITEM_GSTR
 10
18.0
 20
8.5
 30
0.0
 40
7.0
  0
ARC
  8
ITEM_GSTR
 10
3.75
 20
15.75
 30
0.0
 40
1.25
 50
90.0
 51
179.9999999999999
  0
ARC
  8
ITEM_GSTR
 10
32.25
 20
15.75
 30
0.0
 40
1.25
 50
0.0
 51
90.0
  0
ARC
  8
ITEM_GSTR
 10
32.25
 20
1.25
 30
0.0
 40
1.25
 50
270.0
 51
0.0
  0
ARC
  8
ITEM_GSTR
 10
3.75
 20
1.25
 30
0.0
 40
1.25
 50
180.0
 51
269.9999999999999
  0
LINE
  8
ITEM_GSTR
 10
2.5
 20
12.5
 30
0.0
 11
0.0
 21
12.5
 31
0.0
  0
LINE
  8
ITEM_GSTR
 10
2.5
 20
15.75
 30
0.0
 11
2.5
 21
12.5
 31
0.0
  0
LINE
  8
ITEM_GSTR
 10
32.25
 20
17.0
 30
0.0
 11
3.75
 21
17.0
 31
0.0
  0
LINE
  8
ITEM_GSTR
 10
33.5
 20
12.5
 30
0.0
 11
33.5
 21
15.75
 31
0.0
  0
LINE
  8
ITEM_GSTR
 10
36.0
 20
12.5
 30
0.0
 11
33.5
 21
12.5
 31
0.0
  0
LINE
  8
ITEM_GSTR
 10
36.0
 20
4.5
 30
0.0
 11
36.0
 21
12.5
 31
0.0
  0
LINE
  8
ITEM_GSTR
 10
33.5
 20
4.5
 30
0.0
 11
36.0
 21
4.5
 31
0.0
  0
LINE
  8
ITEM_GSTR
 10
33.5
 20
1.25
 30
0.0
 11
33.5
 21
4.5
 31
0.0
  0
LINE
  8
ITEM_GSTR
 10
3.75
 20
0.0
 30
0.0
 11
32.25
 21
0.0
 31
0.0
  0
LINE
  8
ITEM_GSTR
 10
2.5
 20
4.5
 30
0.0
 11
2.5
 21
1.25
 31
0.0
  0
LINE
  8
ITEM_GSTR
 10
0.0
 20
4.5
 30
0.0
 11
2.5
 21
4.5
 31
0.0
  0
LINE
  8
ITEM_GSTR
 10
0.0
 20
12.5
 30
0.0
 11
0.0
 21
4.5
 31
0.0
  0
LINE
  8
ITEM_GSTR
 10
16.54999999999995
 20
5.988526329025262
 30
0.0
 11
19.45000000000004
 21
5.988526329025262
 31
0.0
  0
LINE
  8
ITEM_GSTR
 10
19.45000000000004
 20
5.988526329025262
 30
0.0
 11
20.90000000000009
 21
8.5
 31
0.0
  0
LINE
  8
ITEM_GSTR
 10
20.90000000000009
 20
8.5
 30
0.0
 11
19.45000000000004
 21
11.01147367097496
 31
0.0
  0
LINE
  8
ITEM_GSTR
 10
19.45000000000004
 20
11.01147367097496
 30
0.0
 11
16.54999999999995
 21
11.01147367097496
 31
0.0
  0
LINE
  8
ITEM_GSTR
 10
16.54999999999995
 20
11.01147367097496
 30
0.0
 11
15.10000000000013
 21
8.5
 31
0.0
  0
LINE
  8
ITEM_GSTR
 10
15.10000000000013
 20
8.5
 30
0.0
 11
16.54999999999995
 21
5.988526329025262
 31
0.0
  0
ENDSEC
  0
EOF
